Song name
# A B C D E F G H I J K L M N O P Q R S T U V W X Y Z

Washya - Stretch The Code tab

-----------------------------------------------------------------------------
        Stretch The Code - Washya
-----------------------------------------------------------------------------
Tuning: Drop D (DADGBE)
Intro
E|---------------------------------------------|
B|---------------------------------------------|
G|---------------------------------------------|
D|-----------4---4----------4---4--------4-----|
A|-222222222-2-2-2-22222222-2-2-2-222222-2-2/5-|
D|-222222222---2---22222222---2---222222---2/5-|
PM *********   *   ********   *   ******    

Verses
E|---------------------------------------------15b~-|
B|-------------------------------------9b/11b/-15b~-|
G|-------------------------------------9b/11b/------|
D|------4--------555--------------------------------|
A|-2222-2-222333-333-222-3-3-333-111-0--------------|
D|-2222---222333-----222-3x3-333-111-0--------------|

Chorus
E|---2---------22222---------------------------------------------|
B|-3---3---3---33333---------------------------------------------|
G|-------2---2-22222---------------------------------------------|
D|-------------------5-5555------------------6-------------------|
A|-------------------3-3333-33333333-666/8-8---8-6-8-6-666-555-3-|
D|--------------------------33333333-666/8-------------666-555-3-|
PM                                         * * * * * * 
Tap to rate this tab
# A B C D E F G H I J K L M N O P Q R S T U V W X Y Z