Song name
# A B C D E F G H I J K L M N O P Q R S T U V W X Y Z

Washya - Gia tab

------------------------------------------------------------------------------
                            Gia - Washya
------------------------------------------------------------------------------
Tuning: Drop D (DADGBE)
Intro
E|-------------------------------------------------------------------------|
B|-------------------------------------------------------------------------|
G|-------------------------------------------------------------------------|
D|-------------------------------------------------------------------------|
A|---------------------------------6-5------------3-5--------------6-5-----|
D|-000000000000-6-5-3-0000000000-3-----0000000000-----6-0000000000-----3-5-|
PM ************       **********       **********       **********

E|--------------------------|
B|--------------------------|
G|--------------------------|
D|--------------------------|
A|--------------6-5-3-5-3-0-|
D|-000000000000-6-5-3-5-3-0-|
PM ************ * * * * * 

Verses
E|--------------------------------------------------------------|
B|--------------------------------------------------------------|
G|--------------------------------------------------------------|
D|-----------------------------3-------------------5/7/8--------|
A|-6-5-3-------------------6-5---------------------3/5/6-3-5-6\-|
D|-------6-5-3-0-0-0-0-0-0-------5-6-3-0-0-0-0-0-0-------3-5-6\-|
PM             * * * * * *             * * * * * * 

Chorus
E|-----------------------------------------------------------------|
B|-----------------------------------------------------------------|
G|-44444-4-4/777-33333-3-3/666-----6-------------------------------|
D|-22222-4-4/777-11111-3-3/666---6---6-----------------------------|
A|-22222-2-2/555-11111-1-1/444-4-------4-444444\333333\111-00-0-00-|
D|-22222---------11111-------------------444444\333333\111-00-0-00-|
PM                                                         ** * ** 
Tap to rate this tab
# A B C D E F G H I J K L M N O P Q R S T U V W X Y Z