Song name
# A B C D E F G H I J K L M N O P Q R S T U V W X Y Z

Washya - Kingdom Is Free tab

-----------------------------------------------------------------------------
                   Kingdom Is Free - Washya
-----------------------------------------------------------------------------
Tuning: Drop D (DADGBE)
Intro
E|---------------------------------|
B|---------------------------------|
G|---------------------------------|
D|---------------------------------|
A|-1-3-4--1-3-4--1-3-0~-(let ring)-|
D|-1-3-4--1-3-4--1-3-0~------------|

Part 2
E|-------------------------------------------------------|
B|-------------------------------------------------------|
G|-------------------------------------------------------|
D|-------------------------------------------------------|
A|-0000-000-0-0h1-0000-000-0-0h3-0000-000-0-0h4-44443431-|
D|-0000-000-0-0h1-0000-000-0-0h3-0000-000-0-0h4-44443431-|
PM                                              ******* 

Verses
E|-------------------------------------------------------------------------|
B|-------------------------------------------------------------------------|
G|----------2b-2p0------------------------5b-5p3p0-------------------------|
D|-----------------2p0-----------------------------5p3p0-------------------|
A|--------1------------2p0-3p2p0--------3----------------3h5p3p0-1-3-4-3-1-|
D|-0000-0-1----------------------0000-0-3------------------------1-3-4-3-1-|
PM **** *                        **** *                          * * * * * 


Chorus
E|-0------------------------------------------------------------------|
B|-3------------------------------------------------------------------|
G|-2---------2*-----------------------4*-----------------2*-----------|
D|-0-------4----4h5p4-2---------2h4-2----5p4p2-----4-2----------------|
A|-0---2/5--------------4-----4----------------4-5-----4----5-3-2-1-0-|
D|-0-0--------------------2-4---------------------------------3-2-1-0-|
PM   *                                                        * * *
Tap to rate this tab
# A B C D E F G H I J K L M N O P Q R S T U V W X Y Z