Song name
# A B C D E F G H I J K L M N O P Q R S T U V W X Y Z

Washya - Red Flag tab

-----------------------------------------------------------------------------
                         Red Flag - Washya
-----------------------------------------------------------------------------

Tuning: Standard (EBGDAE)
Intro
E|---------------------------------------------|
B|---------------------------------------------|
G|---------------------------------------------|
D|-----4-444-----6-666-----2-222-5-7-----------|
A|---4---222---6---444---2---000-----8-7-5-----|
E|-2---------4---------0-------------------7-5-|


Verses
E|-------------------------|
B|-----------5-------------|
G|-----5-8-7-------7-------|
D|-8-7---------7-8---------|
A|-------------------5-7---|
E|-----------------------3-|

Chorus
E|-----------------------------------------------------------|
B|-----------------------------------------------------------|
G|-----------------------------------------------------------|
D|-------------------555-5-5---------------------666-6-6-----|
A|-44444444/77777777-333-3-3-3/55555555/88888888-444-4-4-3-2-|
E|-22222222/55555555---------1/33333333/66666666---------1-0-|
Tap to rate this tab
# A B C D E F G H I J K L M N O P Q R S T U V W X Y Z