Song name
# A B C D E F G H I J K L M N O P Q R S T U V W X Y Z

Washya - Driven Into The Ground tab

-----------------------------------------------------------------------------
               Driven Into The Ground - Washya
-----------------------------------------------------------------------------
Tuning: Standard (EBGDAE)
Intro
E|--------------------------------------------------------------------------|
B|----------------------------------------------------------------------13~-|
G|-------------------------------------------------------------10h12h13-----|
D|-2/10----2/10------8------------2/10----2/10---------9h11h12--------------|
A|-2/10----2/10-8h10---11p10p8----2/10----2/10-8h10h11----------------------|
E|-0/8--xx-0/8-----------------10-0/8--xx-0/8-------------------------------|
PM                                             ************************ 

Verses
E|---------------------------------------------------------|
B|---------------------------------------------------------|
G|---------------------------------------------------------|
D|---------------------------------------------------------|
A|--------22--------22-------------5h6h7-5h6h7-------------|
E|-//12~\-00-//12~\-00-3h4h5-3h4h5-------------4h5h6-4h5h6-|
PM                     ***** ***** ***** ***** ***** ***** 

Haven't got a solo sorry
Tap to rate this tab
 
# A B C D E F G H I J K L M N O P Q R S T U V W X Y Z