Song name
# A B C D E F G H I J K L M N O P Q R S T U V W X Y Z

Washya - Collesium tab

-----------------------------------------------------------------------------
                Collesium - Washya
-----------------------------------------------------------------------------
Tuning: Standard (EBGDAE)
Intro
E|--------------------------------------|
B|--------------------------------------|
G|--------------------------------------|
D|--------------------------------------|
A|-------5-3-------5-3-------5-3-8-7-5--|
E|-0-3-6-----6-3-6-----5-6-3-----6-5-3--|x 3
PM * * * * * * * * * * * * * * *  

Verses
E|---------------------------------------------------------------|
B|----------5b-5b-------9b-9b-------------------13b-13b----------|
G|----------5b-5b-------9b-9b-------------------13b-13b----------|
D|---------------------------------------------------------------|
A|------------------------------4/5\4/5/4---------------3*-------|
E|-2222-222-------2-222-------2-2/3\2/3\2-2-222------------5-3-5-|
PM **** ***       * ***       *           * ***            * * * 

Chorus
E|-------------------------------------------------------------------|
B|-------------------------------------------------------------------|
G|-------------------------------------------------------------------|
D|-----------------555-7-----------------333-5-----------------222---|
A|-2-4/5-8\7-2-4/5-333-5-2-4/5-8\7-2-4/5-111-3-2-4/5-8\7-2-4/5-000-2-|
E|-0-2/3-6\5-0-2/3-------0-2/3-6\5-0-2/3-------0-2/3-6\5-0-2/3-----0-|
Tap to rate this tab
 
# A B C D E F G H I J K L M N O P Q R S T U V W X Y Z