Song name
# A B C D E F G H I J K L M N O P Q R S T U V W X Y Z

Washya - Red Wagon tab

------------------------------------------------------------------------------
                        Red Wagon - Washya
------------------------------------------------------------------------------
Tuning: Drop D (DADGBE)
Intro
E|---------------------------------------------------------------|
B|---------------------------------------------------------------|
G|---------------------------------------------------------------|
D|-----------------------------3-5-6-5-3-------------------------|
A|-------------------------3-5-----------5-----------------6-3-3-|
D|-0-0-0-0-0-0-0-0-0-0-0-0-----------------0-0-0-0-0-0-0-0-6-3-3-|
PM * * * * * * * * * * * *                 * * * * * * * * 

Verses
E|-----------------------------|
B|-----------------------------|
G|-----------------------------|
D|-----2-----3-0h2-3-----------|
A|---2-----3---0h2-3-6-5-3-5-2-|
D|-2-----3-----0h2-3-------5-2-|


Chorus
E|---------------------------------------------------------------|
B|---------------------------------------------------------------|
G|---------------------------------------------------------------|
D|----------55555555---------------------7---7---5-77777777------|
A|-22222222-33333333-55555555-88888888-5---5---7---55555555-11-3-|
D|-22222222----------55555555-88888888----------------------11-3-|
Tap to rate this tab
# A B C D E F G H I J K L M N O P Q R S T U V W X Y Z