Song name
# A B C D E F G H I J K L M N O P Q R S T U V W X Y Z

Washya - Kioki tab

-----------------------------------------------------------------------------
                        Kioki - Washya
-----------------------------------------------------------------------------
Tuning: Drop D (DADGBE)
Intro
E|-------------------------------------------------|
B|-------------------------------------------------|
G|-------------------------------------------------|
D|-------------------------------------------------|
A|---------6---------3---------1/6-5-3-2-3-5-6-5-3-|
D|-00000-0-6-00000-0-3-00000-0-1/6-5-3-2-3-5-6-5-3-|
PM ***** *   ***** *   ***** *   * * * * * * * * * 

Verses
E|-----------------------------------------------|
B|-----------------------------------------------|
G|-----------------------------------------------|
D|-----------------------------------------------|
A|-22222--22222--22222333331111122222--032023210-|
D|-22222--22222--22222333331111122222--032023210-|
PM *****  *****  ******************** 

Chorus
E|---------------------------------------------------|
B|---------------------------------------------------|
G|---------------------------------------------------|
D|-10-8-9-10-9-------------333/999/88----------------|
A|-8--6-7-8--7-0-1-3-4-3-1-111/777\66-44-0-2-4-5-4-2-|
D|-------------0-1-3-4-3-1------------44-0-2-4-5-4-2-|
PM             * * * * * *            ** * * * * * * 
Tap to rate this tab
 
# A B C D E F G H I J K L M N O P Q R S T U V W X Y Z