Song name
# A B C D E F G H I J K L M N O P Q R S T U V W X Y Z

Washya - Rock And Go Roll tab

-----------------------------------------------------------------------------
                        Rock And Go Roll - Washya
-----------------------------------------------------------------------------
Tuning: Standard (EBGDAE)
Intro
E|-------------------------------------------------|
B|-------------------------------------------------|
G|-2-2-2---------2-2-2---------2-2-2---------------|
D|-2-2-2---2---2-2-2-2---2---2-2-2-2---------------|
A|-0-0-0-4---4---0-0-0-4---4---0-0-0-----3---------|
E|-----------------------------------3-5---5-4-3\\-|
PM       * * * *       * * * *       * * * * * * 

Verses
E|----------------------------------------|
B|----------------------------------------|
G|--------5---5--------5---5--------------|
D|-7-77-7-5-7-5-7-77-7-5-7-5--------------|
A|-5-55-7---7---5-55-7---7---7-77-3/5-3/5-|
E|---------------------------5-55-1/3-1/3-|

Chorus
E|---------------------------------------------------------------|
B|---------------------------------------------------------------|
G|-------------------------------------6---6---------------------|
D|-5-------------10-7-9---------7-77-7---7---6-66----------------|
A|-3-7-8-3-5-3-5-8--5-7-5-7-5-7-7-77---------4-44-4-6-7-6-4-2-22-|
E|---5-6-1-3-1-3--------3-5-3-5-------------------2-4-5-4-2-0-00-|
Tap to rate this tab
# A B C D E F G H I J K L M N O P Q R S T U V W X Y Z