Song name
# A B C D E F G H I J K L M N O P Q R S T U V W X Y Z

Washya - Lonely Tide tab

-----------------------------------------------------------------------------
                Lonely Tide - Washya
-----------------------------------------------------------------------------
Tuning: Drop D (DADGBE)
Intro
E|-----------------------------------------------------------------------|
B|-----------------------------------------------------------------------|
G|-----------------------------------------------------------------------|
D|-----------------------------------------------------------------------|
A|----------------------3h5-5h6-3h5-5h6-----------------3h5-5h6-3h5-5----|
D|-\\xx-000000000000000-----------------000000000000000---------------6~-|
PM      ***************                 *************** 

Intro 2
E|-------------------------------------------------------------------|
B|-------------------------------------------------------------------|
G|-------------------------------------------------------------------|
D|-------------------------------------------------------------------|
A|-0-0-0-0-0-0-0-0-3h5-5h6-3h5-5h6-0-0-0-0-0-0-0-0-3h5-5h6-3h5-5h6\1-|
D|-0-0-0-0-0-0-0-0-3h5-5h6-3h5-5h6-0-0-0-0-0-0-0-0-3h5-5h6-3h5-5h6\1-|
PM * * * * * * * *                 * * * * * * * * 

Verses
E|-------------------------------------|
B|-------------------------------------|
G|-------------------------------------|
D|---6---5---6---3---6---5---6---555/7-|
A|-3---3---3---3---3---3---3---3-333/5-|
D|-----------------3---3---3---3-------|
PM * * * * * * * *         

Chorus
E|-----------------------------------------------|
B|-----------------------------------------------|
G|-----------------------------------------------|
D|----5---7---7---8----3-----------5---7---333/5-|
A|----3---5---5---6----1---3---5---3---5---111/3-|
D|-00---0---0---0---00---0-3-0-5-0---0---0-------|
PM **   *   *   *   **   *   *   *   *   * 
Tap to rate this tab
# A B C D E F G H I J K L M N O P Q R S T U V W X Y Z