Song name
# A B C D E F G H I J K L M N O P Q R S T U V W X Y Z

Washya - Eagles Nest tab

-----------------------------------------------------------------------------
             Eagles Nest - Washya
-----------------------------------------------------------------------------
Tuning: Standard (EBGDAE)
Intro
E|------------------------------------------|
B|------------------------------------------|
G|------------------------------------------|
D|-----------------1------------------------|
A|---3-1---1-3-------3-----1-3b-1-----5-4-3-|
E|-1-----3-----1-3-----1-3--------3-1-3-2-1-|
PM                                    * * *  x5

Verses
E|-----------------------------------|------0-------0-------0----------|
B|-----------------------------------|--------3-------3-------1--------|
G|-----------------------------------|----------0-------2-------2------|
D|-----------------------------------|---------------------------------|
A|-2222-2-22-2-2222-2222-2-22-2-2222-|----2----------------------------|
E|-0000-0-00-0-0000-0000-0-00-0-0000-|--0---------3-------2-------2/3~-|
PM **** * ** * **** **** * ** * **** x3 

Chorus (Heavy Palm Mute On Em)
E|--------------------------------------------|
B|--------------------------------------------|
G|--------------------------------------------|
D|--------------------------------------------|
A|-2-2-2-3/5\3/5\3-2-2-2-4444-2-2-2-3/5\3/5\3-|
E|-0-0-0-1/3\1/3\1-0-0-0-2222-0-0-0-1/3\1/3\1-|
PM * * *           * * *      * * * 
Tap to rate this tab
# A B C D E F G H I J K L M N O P Q R S T U V W X Y Z