Song name
# A B C D E F G H I J K L M N O P Q R S T U V W X Y Z

Washya - For Your Eyes Only tab

-----------------------------------------------------------------------------
      For Your Eyes Only - Washya (Slow Song - But Heavy as Hell)
-----------------------------------------------------------------------------
Tuning: Standard (EBGDAE)
Intro
E|------------------------------------------------------------|
B|------------------------------------------------------------|
G|-7/99-7/9----------7/99-5/7----------5/77-3/5---------------|
D|----------------------------------------------------3-----2-|
A|-5/77-5/7-7-777777-5/77-3/5-5-555555-3/55-1/3-3---3-----2---|
E|----------5-555555----------3-333333----------1-1-----0-----|
pm            ******            ****** 

Verses
E|-0--------------------------------|
B|-0--------------------------------|
G|-0--/8p7~------4~-----/15p13~-----|
D|-2-----------5----------------/9~-|
A|-2--------/3------444-------------|
E|-0----------------222-------------|
PM                  *** 

Chorus
E|-------------------------------------------------------------|
B|-------------------------------------------------------------|
G|-777---------------5-5-5-5\4-4-4-2-----2-----2-3-3-3-3-------|
D|---------------------------------2---3-----2-----------------|
A|-555-3h5-5-55-4-44-2-2-2-2-2-2-2-0-0-----0-----1-1-1-1-----2-|
E|---------3-33-2-22-------------------------------------1h3-0-|
Tap to rate this tab
# A B C D E F G H I J K L M N O P Q R S T U V W X Y Z