Song name
# A B C D E F G H I J K L M N O P Q R S T U V W X Y Z

Washya - Razor Blade tab

-----------------------------------------------------------------------------
                    Razor Blade - Washya
-----------------------------------------------------------------------------
Tuning: Drop C (DAFCGC)
Intro
D|-----------------------------------------------------------------------|
A|----------------------------------8------------------------------------|
F|----------------------------9-------9----------------------------------|
C|--------------------------------9--------------------------------777\5-|
G|------------------------------7----------------------------------555\3-|
C|-2-2222-22-2-2222-22-2-2222-----------2-2222-22-2-2222-22-2-2222-------|
PM * **** ** * **** ** * ****           * **** ** * **** ** * **** 

Verses
D|---------------------------------------------------------|
A|---------------------------------------------------------|
F|------5\4--------------8\7-------------3\2---------------|
C|---------------------------------------------------444\3-|
G|-2222-----2222-22-2222-----5555-445555-----2222112-222\1-|
C|-2222-----2222-22-2222-----5555-445555-----2222112-------|
PM ****     **** ** ****     **** ******     ******* 

Chorus
D|-------------------------------------------------------------|
A|-------------------------------------------------------------|
F|-------------------------------------------------------------|
C|-----------6-9999-88------------------------8\7--------------|
G|-4444-22-4-4-7777-66-0h2222-8\7-5555-445555-6\5-3333-11h3333-|
C|-4444-22-4-----------0h2222-8\7-5555-445555-----3333-11h3333-|
Tap to rate this tab
# A B C D E F G H I J K L M N O P Q R S T U V W X Y Z