Song name
# A B C D E F G H I J K L M N O P Q R S T U V W X Y Z

Washya - Stepping Into The Shadows tab

-----------------------------------------------------------------------------
         Stepping Into The Shadows - Washya
-----------------------------------------------------------------------------
Tuning: Standard (EBGDAE)
Intro
E|-----------------------------------------------|
B|-----------------------------------------------|
G|-----------------------------------------------|
D|-------------0---------------------0-----------|
A|-2/8---0h1h2---2p1p0---2/6---0h1h2---2p1p0-3-2-|
E|-0/6-0---------------3-0/4-0---------------1-0-|

Verses
E|------------------------------------------|
B|------------------------------------------|
G|------------------------------------------|
D|-------------0-------------------------7~-|
A|-2-3---0h1h2---2p1p0-3-2/8-----456-678----|
E|-0-1-0---------------1-0/6-456------------|
PM                           *** *** *** 

Just Before Chorus
E|------------------|
B|---------------7~-|
G|-5h7p5h7p5h7p5----|
D|------------------|
A|------------------|
E|------------------|

Chorus
E|---------------------------------------------|
B|---------------------------------------------|
G|---------------------------------------------|
D|-33-33-33-33-------------------33-33-33-33-2-|
A|-11-11-11-11-/10h12p10h12p10~\-11-11-11-11-2-|
E|-11-11-11-11-------------------11-11-11-11-0-|
PM ** ** ** **                   ** ** ** ** 

Tap to rate this tab
# A B C D E F G H I J K L M N O P Q R S T U V W X Y Z