Song name
# A B C D E F G H I J K L M N O P Q R S T U V W X Y Z

Washya - Acid Trip tab

-----------------------------------------------------------------------------
                   Acid Trip - Washya
-----------------------------------------------------------------------------

Tuning: Standard (EBGDAE)
Intro
E|-------------------------------------------------------|
B|-------------------------------------------------------|
G|-------------------------------------------------------|
D|-4444-4-44--4444-4-44--4444-4-44-2h4p2---2h4-4444-4-44-|
A|-4444-4-44--4444-4-44--4444-4-44-------4-----4444-4-44-|
E|-2222-2-22--2222-2-22--2222-2-22-------------2222-2-22-|
PM                                 ***** * *** 

Verses
E|------------------------------------------------------|
B|------------------------------------------------------|
G|------------------------------------------------------|
D|-444-4-44-4-44-------3-4-44-44-44-4-------5-5-4-3/8\2-|
A|-444-4-44-4-44-3h4h5---4-44-44-44-4-5h6h7---5-4-3/8\2-|
E|-222-2-22-2-22---------2-22-22-22-2---------3-2-1/6\0-|

Chorus
E|------------------------------------------------------------|
B|------------------------------------------------------------|
G|----------2----------------3----------------1---------------|
D|-------4*---------------5*---------------3*---------2-3-4-6-|
A|---2/5------5-4-2---3/6------6-5-3---1/4------4-3-1-2-3-4-6-|
E|-0----------------0----------------0----------------0-1-2-4-|
Tap to rate this tab
# A B C D E F G H I J K L M N O P Q R S T U V W X Y Z