Song name
# A B C D E F G H I J K L M N O P Q R S T U V W X Y Z

Washya - Machinery tab

------------------------------------------------------------------------------
             Machinery - Washya
------------------------------------------------------------------------------
Tuning: Drop C (DAFCGC)
Intro
D|-------------------------------------------------------|
A|-------------------------------------------------------|
F|-------------------------------------------------------|
C|-------------------------------------------------------|
G|-------------------------------------------------4-3-1-|
C|-3p0-3p0-3p0-1p0-3p0-3p0-3p0-1p0-3p0-3p0-3p0-1p0-4-3-1-|

Verses
D|-----------------------------------------|
A|-----------------------------------------|
F|-----------------------------------------|
C|-----------------------------------------|
G|-----------------1---3-------4-------431-|
C|-1-0-4-0-3-0-4-0---0---0-3-0---0-1-0-431-|
PM * * * * * * * *   *   * * *   * * * 

Chorus
D|------------------------------------------------------------------|
A|------------------------------------------------------------------|
F|----------10\7--------------------------1010101010\77777----------|
C|-33-5-3-5---------------------------------------------------------|
G|-11-3-1-3-8\5--5-7-8-5-77777/1010101010-8-8-8-8-8-\55555-55555-11-|
C|-11-3-1-3--------7-8-5-77777/1010101010------------------55555-11-|
Tap to rate this tab
 
# A B C D E F G H I J K L M N O P Q R S T U V W X Y Z