Song name
# A B C D E F G H I J K L M N O P Q R S T U V W X Y Z

Washya - Sharp Dressed Man tab

------------------------------------------------------------------------------
          Sharp Dressed Man - Zztop 
------------------------------------------------------------------------------
Tuning: Standard (EBGDAE)
Intro
E|----------------------|
B|----------------------|
G|-10-8-5--10-8-5-------|
D|-10-8-5--10-8-5-----5-|
A|------------------1-3-|
E|----------------3-----|

Chorus
E|----------------------------------|
B|----------------------------------|
G|----------------------------------|
D|-----5-5-5\3-------5-55\3-------5-|
A|---1-3-3-3\1-3---1-3-33\1-3---1-3-|
E|-3-----------1-3----------1-3-----|
Tap to rate this tab
 
# A B C D E F G H I J K L M N O P Q R S T U V W X Y Z