Song name
# A B C D E F G H I J K L M N O P Q R S T U V W X Y Z

Washya - Pendulum tab

-----------------------------------------------------------------------------
        Pendulum - Washya
-----------------------------------------------------------------------------
Tuning: Standard (EBGDAE)
Intro (Play Fast)
E|-2-3-2-3-2-3-6-5-3-2-3-2-3-2-3-6-5-3-|
B|-------------------------------------|
G|-------------------------------------|
D|-------------------------------------|
A|-------------------------------------|
E|-------------------------------------|

Verse
E|-------------------------------------|
B|-------------------------------------|
G|-------------------------------------|
D|-------------------------------------|
A|---2---2---2---2---3-2---2---3---2-2-|
E|-0---0---0---0---0-----0---0---0---0-|


Chorus (play fast)
E|---------------2-3-2-----2-3-2-------------------6-7-6-----6-7-6-----|
B|---------------------3---------3-----------------------7---------7---|
G|-----------------------2---------2-----------------------6---------6-|
D|---------------------------------------------------------------------|
A|-2-2-22-2-2-22---------------------2-2-22-2-2-22---------------------|
E|-0-0-00-0-0-00---------------------0-0-00-0-0-00---------------------|
PM * * ** * * **                     * * ** * * **  
Tap to rate this tab
# A B C D E F G H I J K L M N O P Q R S T U V W X Y Z