Song name
# A B C D E F G H I J K L M N O P Q R S T U V W X Y Z

Washya - Red Siren tab

------------------------------------------------------------------------------
                   Red Siren - Washya
------------------------------------------------------------------------------
Tuning: Drop C (DAFCGC)
Intro
D|---------------------------------------------------------|
A|---------------------------------------------------------|
F|---------------------------------------------------------|
C|------------------------5------------------------7-------|
G|----3h5----6p5----3h5---3----5h7----8p7----5h7---5-3-2-1-|
C|-00-----00-----00-----0---00-----00-----00-----0---3-2-1-|
PM **     **     **     *   **     **     **     * 

Verses
D|-----------------------------------------|
A|-----------------------------------------|
F|-----------------------------------------|
C|----5---8---7---33/5---5-----------333-2-|
G|----3---6---5---11/3---3---5-2-3-3-111-0-|
C|-00---0---0---0------0---0-5-2-3-3-------|
PM **   *   *   *      *   *       

Chorus
D|--------------------------------------------------------------------|
A|--------------------------------------------------------------------|
F|--------------------------------------------------------------------|
C|----5/7-8-3/5-555-3/5-8-3/5---3---8---5---33/5---8---5--------------|
G|----3/5-6-1/3-333-1/3-6-1/3---1---6---3---11/3---6---3-----------3*-|
C|-00-------------------------0---0---0---0------0---0---333h5p3h5----|
PM **                         *   *   *   *      *   *   ********* 
Tap to rate this tab
 
# A B C D E F G H I J K L M N O P Q R S T U V W X Y Z