Song name
# A B C D E F G H I J K L M N O P Q R S T U V W X Y Z

Washya - 5050 tab

-----------------------------------------------------------------------------
                        50/50 - Washya
-----------------------------------------------------------------------------
Tuning: Standard (EBGDAE)
Intro/Chorus
E|-----------------------------------------------------|
B|-----------------------------------------------------|
G|-----------------------------------------------------|
D|-----------------------------------------------------|
A|------------5h6-3h5-1h3------------5h6-3h5-1h3-3/5\3-|
E|-0000000000-------------0000000000-------------1/3\1-|
PM **********             ********** 

Verses
E|-----0-------------0---------------0-----------0-----------|
B|-------3-----3-------3-----------3---3-----3---------------|
G|---------0-------------0---------------0-----0-------------|
D|---4-------4-----4-------5-4-------------4-------5-4-2-----|
A|-2-------------2---------------2-----------------------4/5-|
E|-----------------------------0-------------------------2/3-|
Tap to rate this tab
# A B C D E F G H I J K L M N O P Q R S T U V W X Y Z