Song name
# A B C D E F G H I J K L M N O P Q R S T U V W X Y Z

Washya - Disintegrate tab

-----------------------------------------------------------------------------
           Disintegrate - Washya
-----------------------------------------------------------------------------
Tuning: Standard (EBGDAE)
Intro
E|-------------0------------------------------------|
B|---------3-----0----------------------------------|
G|-------0---0-------------2------------------------|
D|-----4-----------2-4-5----------------------------|
A|---5-------------------4------------------3*---5*-|
E|-0------------0------------3b~~-6-5-3b~-1----1----|

Verses
E|---------------------------------------------------|
B|---------------------------------------------------|
G|---------------------------------------------------|
D|---------------------------------------------------|
A|-2-2222-22-2--2-2222-22-2--2-2222-22-2-3/5/6-4/6/7-|
E|-0-0000-00-0--0-0000-00-0--0-0000-00-0-1/3/4-2/4/5-|
PM . .... .. .  . .... .. .  . .... .. . 

Chorus
E|-------------------------------------------------------------------------|
B|-------------------------------------------------------------------------|
G|-----2-------------------------------------------------------------10b---|
D|---4-----2h4-2-------------2*-5-4-3-----------------5*-8-7-5-----7-------|
A|-2-----4-------4-3-2---4------------5-3-------5-7------------7-5-------7-|
E|-0-------------------4---4--------------5-6-7-----7----------------------|
PM 

E|--------------------------------|
B|--------------------------------|
G|-12b----------------------------|
D|--------------------------------|
A|-----9--9-8-7-----9-999-7-5-4-2-|
E|--------------9-7-7-777-5-3-2-0-|
                      *** * * *  
Tap to rate this tab
 
# A B C D E F G H I J K L M N O P Q R S T U V W X Y Z