Song name
# A B C D E F G H I J K L M N O P Q R S T U V W X Y Z

Washya - Lady De Ban Ville tab

------------------------------------------------------------------------------
        Lady De Barville - Washya
------------------------------------------------------------------------------
Tuning: Standard (EBGDAE)
Intro
E|---------------0---------------0-|
B|-----0-----0---------0-----0---0-|
G|---4-----4---4-----4-----4---4---|
D|-2-----2---------2-----2---------|
A|---------------------------------|
E|---------------------------------|

Part 2

E|--6-6h8p6-4--8-8p6-4h6-----------|
B|---------------------------------|
G|---------------------------------|
D|-------------------------7-5-3---|
A|-------------------------5-3-1-8-|
E|-------------------------------6-|
Tap to rate this tab
# A B C D E F G H I J K L M N O P Q R S T U V W X Y Z