Song name
# A B C D E F G H I J K L M N O P Q R S T U V W X Y Z

Washya - Blue Planet tab

------------------------------------------------------------------------------
                  Blue Planet - Washya
------------------------------------------------------------------------------
Tuning: Standard (EBGDAE)
Intro
E|-----------------------------------|
B|-----------------------------------|
G|-22-2-2-2-----22-2-2-2-------------|
D|-22-2-2-2-----22-2-2-2-----4-------|
A|----------2h4----------2b----------|
E|-----------------------------3p2p0-|
PM                             ***** 

Verses
E|------------------------------------------|
B|------------------------------------------|
G|-22-2-22-2-2-222-2-22-2-22-2222-----------|
D|-22-2-22-2-2-222-2-22-2-22-2222-----2---4-|
A|--------------------------------2h4---4---|
E|------------------------------------------|

Chorus
E|------------------------------------------|
B|------------------------------------------|
G|------------------7777/10101010\9---------|
D|----10-7-----3----------------------------|
A|-2-/8--5-3/5-1-2-/5555/8-8-8-8-\7-2-3/7\4-|
E|-0-------1/3---0------------------0-1/5\2-|

Verses
E|------------------------------------------|
B|------------------------------------------|
G|-22-2-22-2-2-222-2-22-2-22-2222-----------|
D|-22-2-22-2-2-222-2-22-2-22-2222-----2---4-|
A|--------------------------------2h4---4---|
E|------------------------------------------|
Tap to rate this tab
# A B C D E F G H I J K L M N O P Q R S T U V W X Y Z