Song name
# A B C D E F G H I J K L M N O P Q R S T U V W X Y Z

Washya - Here Say tab

-----------------------------------------------------------------------------
              Here Say - Washya
-----------------------------------------------------------------------------
Tuning: Standard (EBGDAE)
Intro (Very Fast)
E|-----------------------------------------------------------|
B|-----------------------------------------------------------|
G|-----------------------------------------------------------|
D|-----------------------------------------------------------|
A|-2-2-2-2-2-2-2-5-2-2-2-2-2-2-5-2-2-2-2-8-7-5-2-8-7-5-2-5-7-|
E|-0-0-0-0-0-0-0-3-0-0-0-0-0-0-3-0-0-0-0-6-5-3-0-6-5-3-0-3-5-|

Verses (Very Fast)
E|----------------------------------------------------------------|
B|----------------------------------------------------------------|
G|----------------------------------------------------------------|
D|----------------------------------------------------------------|
A|-2-2-2-2-2-2-4-2-2-2-2-2-2-4-2-2-2-2-2-2-2-5-4-2-4-5-4-2-4-44/7-|
E|-0-0-0-0-0-0-2-0-0-0-0-0-0-2-0-0-0-0-0-0-0-3-2-0-2-3-2-0-2-22/5-|
PM * * * * * *   * * * * * *   * * * * * * *              

Chorus (Very Fast)
E|------------------------------------------------------------------|
B|------------------------------------------------------------------|
G|------------------------------------------------------------------|
D|------------------------------------------------------------5/7---|
A|-4-22-6-22-4-22-4-2-4-2-4-22-6-22-4-22-6-22-5-4-3-2-5-4-3-2-3/5-5-|
E|-2-00-4-00-2-00-2-0-2-0-2-00-4-00-2-00-4-00-3-2-1-0-3-2-1-0-----3-|


Tap to rate this tab
# A B C D E F G H I J K L M N O P Q R S T U V W X Y Z