Song name
# A B C D E F G H I J K L M N O P Q R S T U V W X Y Z

Washya - Geometric tab

-----------------------------------------------------------------------------
             Geometric - Washya
-----------------------------------------------------------------------------
Tuning: Standard (EBGDAE)
Intro
E|---------------------------|
B|---------------------------|
G|---------------------------|
D|---------------------------|
A|---7---5---4---5---3-4-5---|
E|-0-5-0-3-0-2-0-3-0-1-2-3-0-|

Verses
E|---------------------------------------------------------------------|
B|---------------------------------------------------------------------|
G|---------------------------------------------------------------------|
D|---------------------------------------------------------------------|
A|---------------------------------3/4---------------------------5/6---|
E|-0-0-0-0-0-0-0-0-0-0-0-0-0-0-0-0-1/2-0-0-0-0-0-0-0-0-0-0-0-0-0-3/4-0-|
PM * * * * * * * * * * * * * * * *       * * * * * * * * * * * * *       *


E|---------------------------------------|
B|---------------------------------------|
G|---------------------------------------|
D|-----------------------------2-5-------|
A|---------------------------3-0-3-7-5-3-|
E|-0-0-0-0-0-0-0-0-0-0-0-0-5-------5-3-1-|
PM * * * * * * * * * * * * 

E|-------------------------------|
B|-------------------------------|
G|-------------------------------|
D|---------------------------3---|
A|-------------------------5-1-3-|
E|-0-0-0-0-0-0-0-0-0-0-0-0-3---1-|
PM * * * * * * * * * * * * 
Tap to rate this tab
# A B C D E F G H I J K L M N O P Q R S T U V W X Y Z