Song name
# A B C D E F G H I J K L M N O P Q R S T U V W X Y Z

Washya - Shattered tab

-----------------------------------------------------------------------------
                     Shattered Intro and Main Riff - Pantera
-----------------------------------------------------------------------------
Tuning: Standard (EBGDAE)
Intro
E|-----------------------------------------------|
B|-----------------------------------------------|
G|-----------------------------------------------|
D|--------------------9-7-9----9-7-9-------------|
A|-44444444444444444-/7-5-7-22-7-5-7-22-2222-222-|
E|--------------------------00-------00-0000-000-|
PM *****************        **       ** **** ***


Main Riff
E|---------------------------------------|
B|-------2-4-5-4-2-----------------------|
G|-2-3-4-----------4~\-------------------|
D|---------------------------2-4-5-4-2---|
A|---------------------2-3-4-0-2-3-2-0-4-|
E|---------------------0-1-2-----------2-|
Tap to rate this tab
# A B C D E F G H I J K L M N O P Q R S T U V W X Y Z