Song name
# A B C D E F G H I J K L M N O P Q R S T U V W X Y Z

Washya - Passerby tab

-----------------------------------------------------------------------------
                Passer-by - Washya (Grinspoon)
-----------------------------------------------------------------------------
Tuning: Standard (EBGDAE)
Intro (with Delay)
E|--------------------------|
B|--------------------------|
G|--------------------------|
D|---------------------7777-|
A|---------------------5555-|
E|-0-0-0-0-0-0-0-0-0-0------|
PM * * * * * * * * * * 

Verses
E|---------------------------------------------------------------|
B|---------------------------------------------------------------|
G|---------------------------------------------------------------|
D|---------------------------------------------------------------|
A|-------------5h7-------------5h7-----------------5h7-----5h7-7-|
E|-0-0-0-0-0-0-----0-0-0-0-0-0-----0-0-0-0-0-0-5h7-----5h7-------|
PM * * * * * *     * * * * * *     * * * * * * 

Chorus "Passer by pass me by too love you still"
E|---------------------------|
B|---------------11----------|
G|---------------22----------|
D|-777777-555555-22----------|
A|-555555-333333----55555-22-|
E|------------------33333-00-|

"Every man like stranger ships in the night"
E|-8---5--0-|
B|-9---6--1-|
G|-10--7--2-|
D|-10--7--2-|
A|-8---5--0-|
E|----------|
(Strum Chords Once)
Tap to rate this tab
# A B C D E F G H I J K L M N O P Q R S T U V W X Y Z