Song name
# A B C D E F G H I J K L M N O P Q R S T U V W X Y Z

Washya - Passerby tab

------------------------------------------------------------------------------
        Passer by - Grinspoon (Great Song)
------------------------------------------------------------------------------
Tuning: Drop D (EBGDAD)
Intro
E|---------------------------------------------------------|
B|---------------------------------------------------------|
G|-----------------4444------------------------------------|
D|-----------------4444------------------------------------|
A|-2-2-2-2-2-2-2-2-2222-----------3h5---3h5-------3h5-3h55-|
D|----------------------0-0-0-0-0-----0-----0-3h5----------|
PM * * * * * * * *      * * * * *     *     * *** 

Verses (With Delay)
E|---------------------------------------------------------------|
B|---------------------------------------------------------------|
G|---------------------------------------------------------------|
D|---------------------------------------------------------------|
A|---------3h5---3h5-----3h5-3h55---------3h5---3h5-----3h5-3h55-|
D|-0-0-0-0-----0-----3h5----------0-0-0-0-----0-----3h5----------|
PM * * * *     *     ***          * * * *     *     ***    

Chorus
E|-------------------------|
B|-------------------------|
G|-44444-77777-------------|
D|-44444-77777-33333-11111-|
A|-22222-55555-33333-11111-|
D|-------------33333-11111-|
Tap to rate this tab
# A B C D E F G H I J K L M N O P Q R S T U V W X Y Z