Song name
# A B C D E F G H I J K L M N O P Q R S T U V W X Y Z

Washya - Doused With Fire tab

-----------------------------------------------------------------------------
        Doused With Fire - Washya
-----------------------------------------------------------------------------
Tuning: Standard (EBGDAE)
Intro
E|------------------------------------------------------------------|
B|----7--------------------------------------4----------------------|
G|------7---5----------------------------------4----4---------------|
D|--5---------5----3-----------------------2----------4-2-2222-2-22-|
A|--------3----------3-3333-3-33-2222-2-22-------22-------0000-0-00-|
E|---------------1-----1111-1-11-0000-0-00--------------------------|

Verses
E|----------------------------------------------------------------------|
B|----------------------------------------------------------------------|
G|----------------------------------------------------------------------|
D|-xx-xx-xx-xx-xx-xx-xx-xx-xx-xx-66-xx-xx-xx-xx-xx-xx-xx-xx-xx-xx-44-22-|
A|-xx-xx-xx-xx-xx-xx-xx-xx-xx-xx-66-xx-xx-xx-xx-xx-xx-xx-xx-xx-xx-44-22-|
E|-xx-xx-xx-xx-xx-xx-xx-xx-xx-xx-44-xx-xx-xx-xx-xx-xx-xx-xx-xx-xx-22-00-|

Chorus
E|---------------------------------------------------------------------|
B|---------------------------------------------------------------------|
G|---------------------------------------------------------------------|
D|-7777-7-77-5555-5-55-10101010-10-1010-8888-8-88-6666-6-8-9-8-6\8/6-4-|
A|-7777-7-77-5555-5-55-10101010-10-1010-8888-8-88-6666-6-8-9-8-6\8/6-4-|
E|-5555-5-55-3333-3-33-8-8-8-8--8--8-8--6666-6-66-4444-4-6-7-6-4\6/4-2-|
Tap to rate this tab
 
# A B C D E F G H I J K L M N O P Q R S T U V W X Y Z