Song name
# A B C D E F G H I J K L M N O P Q R S T U V W X Y Z

Washya - Sharked tab

-----------------------------------------------------------------------------
                           Sharked - Washya
-----------------------------------------------------------------------------
Tuning: Standard (EBGDAE)
Intro
E|------------------------------------------------------|
B|------------------------------------------------------|
G|------------------------------------------------------|
D|------10------7---------------------------------------|
A|------8-------5------5/7-5/7-----7-----5------3/5-3/5-|
E|-0000----0000---0000-3/5-3/5-55555-33333-0000-1/3-1/3-|
PM ****    ****   ****         ****  ****  ****  

Main Riff
E|----------------------------------------------------------------|
B|----------------------------------------------------------------|
G|----------------------------------------------------------------|
D|----------------------------------------------------------------|
A|----3/4---4/5---7/8---8/9---6/7---4/5---7/8---6/7---5/6---3/4-2-|
E|-00-1/2-0-2/3-0-5/6-0-6/7-0-4/5-0-2/3-0-5/6-0-4/5-0-3/4-0-1/2-0-|
PM **     *     *     *     *     *     *     *     *     *     

Verses
E|--------------------------------------------------|
B|-------2---------------3---4--------------12b-----|
G|-----0-----------2-3-4---4------------10b---------|
D|---4-----------0----------------------------------|
A|-5-------5-4-2---------------9\8\4-3--------------|
E|-----------------------------7\6\2-1-0----0-------|

Verses (Heavy)
E|----------------------------------------|---------|
B|----------------------------------------|---------|
G|----------------------------------------|---------|
D|----------------------------------------|---------|
A|-2-2222-22-2--2-2222-22-2--2-2222-22-2--|-345-789-|
E|-0-0000-00-0--0-0000-00-0--0-0000-00-0--|-123-567-|
PM * **** ** *  * **** ** *  * **** ** * x3
Tap to rate this tab
# A B C D E F G H I J K L M N O P Q R S T U V W X Y Z