Song name
# A B C D E F G H I J K L M N O P Q R S T U V W X Y Z

Washya - Loeka tab

-----------------------------------------------------------------------------
                    Loeka - Washya
-----------------------------------------------------------------------------
Tuning: Standard (EBGDAE)
Intro
E|------------------------------------|
B|------------------------------------|
G|------------------------------------|
D|------7/9------9/11------5/7--------|
A|------5/7------7/9-------3/5-333-22-|
E|-3333-----5555------1111-----111-00-|
PM ****     ****      ****     *** ** 

Verses
E|-------------------------------------------------|
B|-------------------------------------------------|
G|-------------------------------------------------|
D|-0h3p2p0-------2---3-----------------------------|
A|---------0h2h3---3---7/8------4/5------9-8-7-5-3-|
E|---------------------5/6-6666-2/3-3333-7-6-5-3-1-| 
PM                         ****     **** * * * * * 

Chorus
E|-----------------------------------------------------------------|
B|-----------------------------------------------------------------|
G|-----------------------------------------------------------------|
D|-----4\3---------10\9---7h9p7h9p7h9p7p6h7p6h7p6h7p6~-------------|
A|-2-2-2\1-5/7-3/5-8-\7-2------------------------------7-8-9\5-6-7-|
E|-0-0-----3/5-1/3------0------------------------------5-6-7\3-4-5-|
PM * *                      
Tap to rate this tab
# A B C D E F G H I J K L M N O P Q R S T U V W X Y Z