Song name
# A B C D E F G H I J K L M N O P Q R S T U V W X Y Z

Washya - Dream On Me tab

------------------------------------------------------------------------------
                   Dream On Me - Washya
------------------------------------------------------------------------------
Tuning: Standard (EBGDAE)
Intro
E|----------------------------------------------------|------------------|
B|----------------------------------------------------|------------------|
G|----------------------------------------------------|------------------|
D|-7777-777-7-77-66-7777-777-7-77-66-7777-777-7-77-66-|------------------|
A|-5555-555-5-55-44-5555-555-5-55-44-5555-555-5-55-44-|-5555-555-5-5/888-|
E|----------------------------------------------------|-3333-333-3-3/666-|
                                                   x4 x1 

Verses
E|-----------------------|
B|-----------------------|
G|-----------------------|
D|-------------------666-|
A|------8888-888-8-8-444-|
E|-//8~-6666-666-6-6-----|

Chorus
E|--------------------------------------------------------------------|
B|--------------------------------------------------------------------|
G|--------------------------------------------------------------------|
D|--------------------------------------777-7-7-77-7-7777-------------|
A|----88888888888-7777777777-2222222222-555-5-5-55-5-5555-3333333/888-|
E|-//-66666666666-5555555555-0000000000-------------------1111111/666-|

Guitar Solo
E|------------------------------------------------------/12h15p13p12h15-|
B|-9b-8h9p8-6h8p6-5h6---3h4---7b-7p6h7/10p9h10/12p11h12-----------------|
G|--------------------7-----5-------------------------------------------|
D|----------------------------------------------------------------------|
A|----------------------------------------------------------------------|
E|----------------------------------------------------------------------|

E|-12h15p13p12h15p13p12\\-|
B|------------------------|
G|------------------------|
D|------------------------|
A|------------------------|
E|------------------------|
Tap to rate this tab
 
# A B C D E F G H I J K L M N O P Q R S T U V W X Y Z