Song name
# A B C D E F G H I J K L M N O P Q R S T U V W X Y Z

Washya - Vendetta tab

-----------------------------------------------------------------------------
        Vendetta - Washya
-----------------------------------------------------------------------------
Tuning: Drop C (DAFCGC)
Intro
F|------------------------------|
A|------------------------------|
D|----10~-----------------------|
C|----8~------------------5-----|
G|----8~------------------3-----|
C|-88-8~-88-10-7h8p7\-5/7---000-|
PM **                       *** 

Verses
Main Riff
F|-----------------------------------------------------------------|
A|-----------------------------------------------------------------|
D|-----------------------------------------------------------------|
C|----5---7---5---8----8\7--------------------5---7---5---8----8\7-|
G|----3---5---3---6----6\5-5-6-5-0-3-0-3h5----3---5---3---6----6\5-|
C|-00---0---0---0---00-----5-6-5-0-3-0-3h5-00---0---0---0---00-----|
PM **   *   *   *   **                     **   *   *   *   ** 

F|-----------------|
A|-----------------|
D|-----------------|
C|---6-------------|
G|-8---8-7-5-0-3-5-|
C|-8---8-7-5-0-3-5-|

Chorus
F|-------------------------------------------------------------------------|
A|---------------9-------------------7-----------------5-------------------|
D|-----10-------------10-----8-----------8-----6-----------6---------------|
C|--------10-------10----------8-------8---------6-------6-------6\-----4\-|
G|---8---------8-----------6-------6---------4-------4-----------6\-----4\-|
C|-8---------8-----------6-------6---------4-------4---------666-6\-444-4\-|
PM * *       * *         * *     * *       * *     * *       ***    *** 

Verses
Main Riff
F|-----------------------------------------------------------------|
A|-----------------------------------------------------------------|
D|-----------------------------------------------------------------|
C|----5---7---5---8----8\7--------------------5---7---5---8----8\7-|
G|----3---5---3---6----6\5-5-6-5-0-3-0-3h5----3---5---3---6----6\5-|
C|-00---0---0---0---00-----5-6-5-0-3-0-3h5-00---0---0---0---00-----|
PM **   *   *   *   **                     **   *   *   *   ** 

F|-----------------|
A|-----------------|
D|-----------------|
C|---6-------------|
G|-8---8-7-5-0-3-5-|
C|-8---8-7-5-0-3-5-|

Chorus
F|-------------------------------------------------------------------------|
A|---------------9-------------------7-----------------5-------------------|
D|-----10-------------10-----8-----------8-----6-----------6---------------|
C|--------10-------10----------8-------8---------6-------6-------6\-----4\-|
G|---8---------8-----------6-------6---------4-------4-----------6\-----4\-|
C|-8---------8-----------6-------6---------4-------4---------666-6\-444-4\-|
PM * *       * *         * *     * *       * *     * *       ***    *** 

Outro (Fade out)
F|-----------------------------------------|
A|-----------------------------------------|
D|--------10\-------10\-------8\--------8\-|
C|--------8\--------8\--------6\--------6\-|
G|--------8\--------8\--------6\--------6\-|
C|-888888-8\-888888-8\-666666-6\-666666-6\-|
PM ******    ******    ******    ****** 
Tap to rate this tab
 
# A B C D E F G H I J K L M N O P Q R S T U V W X Y Z