Song name
# A B C D E F G H I J K L M N O P Q R S T U V W X Y Z

Washya - Enemies At The Gate tab

-----------------------------------------------------------------------------
          Enemies At The Gate - Washya
-----------------------------------------------------------------------------
Tuning: Standard (EBGDAE)
Intro
E|---------------------------------------------------------------|
B|---------------------------------------------------------------|
G|---------------------------------------------------------------|
D|-------3------------3------------5-----------5-----88888/999-7-|
A|---4-5----5-4---4-5---5-4----6-7---7-6---6-7---7-6-66666/777-5-|
E|-2------------2-----------/4-----------4-----------------------|
PM *            *            *           * 

Verses
E|-----------------------------------------------------------------|
B|-----------------------------------------------------------------|
G|-----------------------------------------------------------------|
D|-----------------------------------------------------------------|
A|-------------------5/8\7\\----------------3/6\5\\----------------|
E|-//xx-000000000000-3/6\5\\xx-000000000000-1/4\3\\xx-000000000000-|
PM      ************           ************           ************ 

E|---------------------|
B|---------------------|
G|---------------------|
D|---------------------|
A|---3---3/5\3---5/6/7-|
E|-0-1-0-1/3\1-0-3/4/5-|
PM * * * * * * * * * *

Chorus
E|---------------------------------------------------------------|
B|---------------------------------------------------------------|
G|---------------------------------------------------------------|
D|---------------------------------------------------------------|
A|---4---6---4---6---4/5/6------6---8---6---8---6/7/8------3/4/5-|
E|-0-2-0-4-0-2-0-4-0-2/3/4-0--0-4-0-6-0-4-0-6-0-4/5/6-0--0-1/2/3-|
PM * * * * * * * * *          * * * * * * * * *          * * * *  

Bridge
E|-------------------------------------------------------|
B|-------------------------------------------------------|
G|-------------------------------------------------------|
D|---------------5~---------------3~---------------------|
A|-5----3----3---3~-5----3----3---1~-5----3----3---5-4-3-|
E|-3-00-1-00-1-0----3-00-1-00-1-0----3-00-1-00-1-0-3-2-1-|x2
PM * ** * ** * *    * ** * ** * *    * ** * ** * * * * *  
Tap to rate this tab
 
# A B C D E F G H I J K L M N O P Q R S T U V W X Y Z