Song name
# A B C D E F G H I J K L M N O P Q R S T U V W X Y Z

Washya - Shut Out tab

------------------------------------------------------------------------------
                       Shut Out - Washya
------------------------------------------------------------------------------
Tuning: Standard (EBGDAE)
Intro
E|-------------------------------------------------------|
B|-------------------------------------------------------|
G|-------------------------------------------------------|
D|------7-xx------------xx-------------------------------|
A|------5-xx-5h7---5-55-xx-3h5---3-33-1h3---7-77-1h3---2-|
E|-//xx----------7-3-33--------5-1-11-----5-5-55-----3-0-|
PM                   **            **         **       

Verses
E|-------------------------------------------------------|
B|-------------------------------------------------------|
G|-------------------------------------------------------|
D|-------------------------------------------------------|
A|-333-555-77-55-333-555-77-55---------------------------|
E|-----------------------------333-11-33-555-33-000-11-3-|
PM *** *** ** ** *** *** ** ** *** ** ** *** ** *** ** 

Chorus
E|---------------------------------------------------------|
B|---------------------------------------------------------|
G|-------------------------------------5*------------------|
D|-77-5---7-5---77-5---7-5-------3--------77-5---5-7-------|
A|-55-3-7-5-3-5-55-3-7-5-3-3h5h6---5h6----55-3-7-3-5-5-4-3-|
E|------5-----3------5-------------------------5-----3-2-1-|
Tap to rate this tab
 
# A B C D E F G H I J K L M N O P Q R S T U V W X Y Z