Song name
# A B C D E F G H I J K L M N O P Q R S T U V W X Y Z

Washya - Suicide Gene tab

------------------------------------------------------------------------------
        Suicide Gene - Washya
------------------------------------------------------------------------------
Tuning: Drop D (EBGDAD)
E|-------------------------------------------------------------|
B|-------------------------------------------------------------|
G|-------------------------------7*----------------------------|
D|---------------------------3h5-----------------------3-4p3p1-|
A|-12\\----5---8-------3h5h6-----------5---8-------1h4---------|
D|-12\\-00---0---3h5-0--------------00---0---1h3-0-------------|
PM      **   *   *** *              **   *   *** * 

Verses
E|-------------------------------------------------------------|
B|-------------------------------------------------------------|
G|-------------------------------------------------------------|
D|-------------------------------------------------------------|
A|----------------------1/2/3----------------------6-5-3-1/2/3-|
D|-0000-000-0000-000-00-1/2/3-0000-000-0000-000-00-6-5-3-1/2/3-|
PM **** *** **** *** **       **** *** **** *** ** 

Chorus (play fast and lots of bass and distortion)
E|-------------------------------------------------------------------|
B|-------------------------------------------------------------------|
G|-------------------------------------------------------------------|
D|-------------------------------------------------------------------|
A|----4---2-----4---2---6666-5/6\5-3-2----4---2----4---2------2---6~-|
D|-00-4-0-2-000-4-0-2-0-6666-5/6\5-3-2-00-4-0-2-00-4-0-2-0-00-2-0-6~-|
PM **   *   **    *   *                **   *   **   *   * **   * 
Tap to rate this tab
# A B C D E F G H I J K L M N O P Q R S T U V W X Y Z