Song name
# A B C D E F G H I J K L M N O P Q R S T U V W X Y Z

Washya - Secret Island tab

-----------------------------------------------------------------------------
               Secret Island - Washya
-----------------------------------------------------------------------------
Tuning: Drop D (EBGDAD)
Intro
E|----------------------------------------|
B|----------------------------------------|
G|----------------------------------------|
D|------5-55----------------5-55----------|
A|-3-33-3-33-111-3-33--3-33-3-33-111-3-33-|
D|-3-33------111-3-33--3-33------111-3-33-|x3

Verses
E|-----------------------------------------------------------------|
B|-----------------------------------------------------------------|
G|-----------------------------------------------------------------|
D|-----------------------------------------------------------------|
A|---------------------------------------------------3p2p0-8p7p5---|
D|-3p2p0-000000000000-3p2p0-6p5p3-000000000000-3p2p0-------------7-|
PM       ************             ************ 

E|--------------------------------------------------------------------|
B|--------------------------------------------------------------------|
G|--------------------------------------------------------------------|
D|--------------------------------------------------------------------|
A|--------------5h6p5----------------2h3p2----------------5p4p2-3-2-1-|
D|-000000000000-------6-000000000000-------3-000000000000-------3-2-1-|
PM ************         ************         ************       * * * 

Chorus
E|-------------------------------------------------------------------|
B|-------------------------------------------------------------------|
G|-------------------------------------------------------------------|
D|-----------555555-333333---------------666666/888888---------------|
A|-555555555-333333-111111-111111/444444-444444/666666-666666-111111-|
D|-555555555---------------111111/444444---------------666666-111111-|
Tap to rate this tab
# A B C D E F G H I J K L M N O P Q R S T U V W X Y Z