Song name
# A B C D E F G H I J K L M N O P Q R S T U V W X Y Z

Washya - Foundry tab

-----------------------------------------------------------------------------
                    Foundry - Washya
-----------------------------------------------------------------------------
Tuning: Drop D (DADGBE)
Intro
E|--------------------------------------------------------|
B|--------------------------------------------------------|
G|--------------------------------------------------------|
D|----------5-----7----------------5-----8----------------|
A|----------3-----5-----6-5-3-0----3-----6------6-5-3-2-0-|
D|-//xx-000---000---000-6-5-3-0-000---000---000-6-5-3-2-0-|
PM      ***   ***   ***         ***   ***   *** * * * *  

Main Riff/Chorus
E|----------------------------------------------------------|
B|----------------------------------------------------------|
G|----------------------------------------------------------|
D|-------------------------------------7777-666-------------|
A|-----6-5-6-3-1-0-----5-6-5-1-3-1-0--/5555-444-5-3-2-3-2-0-|
D|-000-6-5-6-3-1-0-000-5-6-5-1-3-1-0------------5-3-2-3-2-0-|
PM ***             ***                          * * * * * 

Verses
E|----------------------------------------------------------|
B|----------------------------------------------------------|
G|----------------------------------------------------------|
D|-----------4*-----------4p2-----4p2---------------4-------|
A|-222222222----222222222-----4p3-----4p3-222222222-2-3-2-1-|
D|-222222222----222222222-----------------222222222---3-2-1-|
PM *********    *********                 *********     
Tap to rate this tab
 
# A B C D E F G H I J K L M N O P Q R S T U V W X Y Z