Song name
# A B C D E F G H I J K L M N O P Q R S T U V W X Y Z

Washya - Stoned And Alone tab

------------------------------------------------------------------------------
                 Stoned and Alone - Washya
------------------------------------------------------------------------------
Tuning: Standard (EBGDAE)
Intro
E|-------------------------------------------------|
B|-------------------------------------------------|
G|-------------------------------------------------|
D|-------0-----------0-----------0-----------------|
A|-----2---2-0-----2---2-0-----2---2-0-----2-0-2-2-|
E|-3-0---------3-0---------3-0---------2-3-------0-|

Verses
E|---------------------------------------|
B|---------------------------------------|
G|---------------------------------------|
D|-----------------------------------5-7-|
A|-------2-0---2-------------2-0---2-3-5-|
E|-0-2-3-----3-0-xx-xx-0-2-3-----3-0-----|

Chorus
E|-------------------------------------------------------------|
B|-------------------------------------------------------------|
G|-------------------------------------------------------------|
D|-------------3-------2-0-----------3-4-5---------------------|
A|-------2-0---1-3-5-2-----2-0-----5-1-2-3-------2-0---7-5-4-3-|
E|-0-2-3-----3---1-3-0---------3-0-3-------0-2-3-----3-5-3-2-1-|
PM * * * * * *         * * * * * *         * * * * * * 
Tap to rate this tab
# A B C D E F G H I J K L M N O P Q R S T U V W X Y Z