Song name
# A B C D E F G H I J K L M N O P Q R S T U V W X Y Z

Washya - Cover Me tab

------------------------------------------------------------------------------
             Cover Me - Washya
------------------------------------------------------------------------------
Tuning: Drop D (EBGDAD)
Intro
E|-------------------------------------------------------------------------|
B|-------------------------------------------------------------------------|
G|-5-00-7-00----------4h5h7-5-0-7-0-----------------5-0-7-0------2-0-2-3-2-|
D|-----------4-0-5-00---------------6----4-0-5-00-----------6--------------|
A|------------------------------------77----------3-----------44-----------|
D|-------------------------------------------------------------------------|

E|--------------------|
B|--------------------|
G|-3333-xxx-3333------|
D|-3333-xxx-3333-1111-|
A|-1111-xxx-1111-1111-|
D|---------------1111-|

Verses
E|---------------------------------------------------------|
B|---------------------------------------------------------|
G|---------------------------------------------------------|
D|-555-5-55-4/5-7-3333-2-3-2-------------------------------|
A|-333-3-33-2/3-5-1111-0-1-0-0-0000-1-0-1-0-3-3333-2-3-2-0-|
D|---------------------------0-0000-1-0-1-0-3-3333-2-3-2-0-|

Chorus
E|-------------------------------------------------------|
B|-------------------------------------------------------|
G|-------------------------------------------------------|
D|-------------55555-------------------3-3333-3-3333-----|
A|-22222-33333-33333-55555-66666-22222-1-1111-1-1111-1h3-|
D|-22222-33333-------55555-66666-22222---------------1h3-|
Tap to rate this tab
# A B C D E F G H I J K L M N O P Q R S T U V W X Y Z