Song name
# A B C D E F G H I J K L M N O P Q R S T U V W X Y Z

Washya - Bruised Bloodied And Snapped tab

-----------------------------------------------------------------------------
       Bruised, Bloodied and Snapped - Washya
-----------------------------------------------------------------------------
Tuning: Standard (EBGDAE)
Intro
E|---------------------------------|
B|---------------------------------|
G|---------------------------------|
D|---------------------------------|
A|---------------------------------|
E|-2222222222222222222222222222222-|x3 

Intro 2 
E|----------------------------------|-10-7----------10-7--------------------|
B|----------------------------------|------10-9-7--------10-9-7-------------|
G|----------------------------------|-------------9-------------9-----------|
D|----------5----------3----------2-|---------------------------------------|
A|----------5----------3----------2-|-----------------------------22-2-22-22|
E|-22222222---22222222---22222222---|-----------------------------00-0-00-00|
PM ********   ********   ******** x2                              ** * ** ** 

Verses
E|--------------------------------------------------------10-7----------|
B|-------------------------------------------------------------10-9-7---|
G|--------------------------------------------------------------------9-|
D|----------------------------------------------------------------------|
A|----------------------------------------------------------------------|
E|-2222-2-2222-2-2222-2-2222-2-2222-2-2222-22-2222-2-2222---------------|
PM **** * **** * **** * **** * **** * **** ** **** * **** 

Chorus
E|-------------------------------------------------|
B|-------------------------------------------------|
G|-------------------------------------------------|
D|---5\4-5\4-5\4-----------------------------------|
A|-5-3\2-3\2-3\2-2-2222-22-2-2222-77777-77-8-7-5-4-|
E|-3-------------0-0000-00-0-0000-55555-55-6-5-3-2-|
PM                 **** ** * **** ***** 
Tap to rate this tab
# A B C D E F G H I J K L M N O P Q R S T U V W X Y Z