Song name
# A B C D E F G H I J K L M N O P Q R S T U V W X Y Z

Washya - Life Living tab

-------------------------------------------------------------------------------
          Life Living - Washya
-------------------------------------------------------------------------------
Tuning: Standard (EBGDAE)
Intro/Verses
E|---------------------------|
B|---------------------------|
G|---------------------------|
D|-------5-------------------|
A|-------3-5-2------3------5-|
E|-00000---3-0-0000-1-0000-3-|
PM *****       ****   **** 

Main Riff
E|------------------------------------|
B|------------------------------------|
G|------------------------------------|
D|--------------------------9-8-------|
A|-4/8-5/9-66-7-66-5/10-6/9-7-6-7-6-5-|
E|-2/6-3/7-44-5-44-3/8--4/7-----5-4-3-|
Tap to rate this tab
# A B C D E F G H I J K L M N O P Q R S T U V W X Y Z