Song name
# A B C D E F G H I J K L M N O P Q R S T U V W X Y Z

Washya - Switch It On tab

------------------------------------------------------------------------------
             Switch It On - Washya
------------------------------------------------------------------------------
Tuning: Drop C (DAFCGC)
Intro
D|------------------------|
A|------------------------|
F|------------------------|
C|------------------------|
G|----3---5---3---5----55-|
C|-00---0---0---0---00----|x3
PM **   *   *   *   ** 

Main Riff/Verses
D|------------------------------|
A|------------------------------|
F|------------------------------|
C|------------------------------|
G|-0-0-0-0-0-0-0-0-3-0-3-5-6-8\-|
C|-0-0-0-0-0-0-0-0-3-0-3-5-6-8\-|
PM * * * * * * *  

Chorus
D|------------------------------------------------|
A|------------------------------------------------|
F|------------------------------------------------|
C|-55-----------------5-55-5-5/777----------------|
G|-33-555/8-888-0-000-3-33-3-3/555-8-888-555-55-0-|
C|----555/8-888-0-000--------------8-888-555-55-0-|
Tap to rate this tab
# A B C D E F G H I J K L M N O P Q R S T U V W X Y Z