Song name
# A B C D E F G H I J K L M N O P Q R S T U V W X Y Z

Washya - Bridge To Destruction tab

-----------------------------------------------------------------------------
             Bridge To Destruction - Washya
-----------------------------------------------------------------------------
Tuning: Drop D (DADGBE)
Intro
E|-----------------------------------------------------------|
B|-----------------------------------------------------------|
G|-----------------------------------------------------------|
D|--------------5/7-8\7/5/7--------------------3-------------|
A|--------------3/5-6\5\3/5--------------3-5-6---6-5-3-3h5p3-|
D|-000000000000-------------000000000000---------------------|
PM ************             ************ 

Verses
E|--------------------------------------------------------------------------|
B|--------------------------------------------------------------------------|
G|--------------------------------------------------------------------------|
D|-------------------------------------------2h3p2--------------------------|
A|-000000000000-1-3-4-3-1-3-000000000000-2h4-------000000000000-4-3-1-3-1-0-|
D|-000000000000-1-3-4-3-1-3-000000000000-----------000000000000-4-3-1-3-1-0-|
PM ************             ************           ************ 

Chorus
E|-------------------------------------------------------|
B|-------------------------------------------------------|
G|-------------------------------------------------------|
D|-----8\7-----8\7\5\3/5-----7/9-----7/9-9\8\6\4/6/8-----|
A|-5/6-6\5-5/6-6\5\3\1/3-8\7-5/7-8\7-5/7-7\6\4\2/4/6-5/7-|
D|-5/6-----5/6-----------8\7-----8\7-----------------5/7-|
Tap to rate this tab
# A B C D E F G H I J K L M N O P Q R S T U V W X Y Z