Song name
# A B C D E F G H I J K L M N O P Q R S T U V W X Y Z

Washya - Holiday Rises tab

-------------------------------------------------------------------------------
          Holiday Rises - Washya
-------------------------------------------------------------------------------
Tuning: Standard (EBGDAE)
Intro
E|-------------------------------------------------------------|
B|-------------------------------------------------------------|
G|-------------------------------------------------------------|
D|---------------------6\5---------------------6-3-------------|
A|---------------------6\5-------------------------5-4-2-----2-|
E|-4444444444444444444-----4444444444444444444-----------4-2-0-|
PM *******************     ******************* 

Verses
E|----------------------------------------------------------------|
B|----------------------------------------------------------------|
G|----------------------------------------------------------------|
D|----------------------------------------------------------------|
A|----------------------------------------------------------------|
E|-2222-22-22-2-2222-22-22-2-2222-22-22-2-2222-22-22-2-2222-22-22-|
PM **** ** ** * **** ** ** * **** ** ** * **** ** ** * **** ** ** 

E|----------------------------------------------------------------------|
B|----------------------------------------------------------------------|
G|-----------------------------6-4-----------6-4------------------------|
D|-4-2-----------4-2---------------7-6-4---------7-6-4--------8\7-------|
A|-----5-4-2---------5-4-2---------------6-4-----------6-4----6\5---4/5-|
E|-----------4-2-----------4-2-----------------------------00-----0-2/3-|
PM                                                         **     * 

Chorus
E|-------------------------------------------------------18-14----14--------|
B|-------------------------------------------------------------18----18-----|
G|----------------------------------------------------------------------17~-|
D|-5--------3--------2--------7--------5--------4---------------------------|
A|-5--------3--------2--------7--------5--------4---------------------------|
E|---000000---000000---000000---000000---000000---000000--------------------|
PM   ******   ******   ******   ******   ******   ****** 

Verses
E|----------------------------------------------------------------|
B|----------------------------------------------------------------|
G|----------------------------------------------------------------|
D|----------------------------------------------------------------|
A|----------------------------------------------------------------|
E|-2222-22-22-2-2222-22-22-2-2222-22-22-2-2222-22-22-2-2222-22-22-|
PM **** ** ** * **** ** ** * **** ** ** * **** ** ** * **** ** ** 

E|----------------------------------------------------------------------|
B|----------------------------------------------------------------------|
G|-----------------------------6-4-----------6-4------------------------|
D|-4-2-----------4-2---------------7-6-4---------7-6-4--------8\7-------|
A|-----5-4-2---------5-4-2---------------6-4-----------6-4----6\5---4/5-|
E|-----------4-2-----------4-2-----------------------------00-----0-2/3-|
PM                                                         **     * 
Tap to rate this tab
 
# A B C D E F G H I J K L M N O P Q R S T U V W X Y Z