Song name
# A B C D E F G H I J K L M N O P Q R S T U V W X Y Z

Washya - Skinkfool tab

-----------------------------------------------------------------------------
           SkinkFool - Washya
-----------------------------------------------------------------------------
Tuning: Standard (EBGDAE)
Intro
E|-------------------------------|
B|-------------------------------|
G|-------------------------------|
D|-------------------------------|
A|-222-2-3333-222-2-3333-3/5-3/5-|
E|-000-0-1111-000-0-1111-1/3-1/3-|x3

Verses
E|-------------------------------------|
B|-------------------------------------|
G|-------------------------------------|
D|-------------------------------------|
A|----2-----2-----2-------2----2---345-|
E|-33-0-333-0-333-0-3-333-0-33-0-3-123-|
PM **   ***   ***   * ***   **   * 

Chorus (Play Fast)
E|---------------------------------------------------------------------|
B|---------------------------------------------------------------------|
G|---------------------------------------------------------------------|
D|---------------------------------------------------------------------|
A|-----2-----2---1-2---1-2-----2-----2-2-3-4-2-3-4-----2-----2-x-3-x-5-|
E|-0-3-0-0-3-0-3---0-3---0-0-3-0-0-3-0-0-1-2-0-1-2-0-3-0-0-3-0-x-1-x-3-|
PM * *   * *   * *   * *   * *   * *   * * * * * * * *   * *     

Interlude (Also play fast)
E|--------------------------------------------------------------|
B|--------------------------------------------------------------|
G|--------------------------------------------------------------|
D|-777666-----------888777-----------444333--------------3----4-|
A|-555444-555444333-666555-666555444-222111-444333222-xx-1-xx-2-|
E|--------333222111--------444333222--------222111000-xx---xx---|x4
PM ****** ********* ****** ********* ****** ********* 
Tap to rate this tab
# A B C D E F G H I J K L M N O P Q R S T U V W X Y Z