Song name
# A B C D E F G H I J K L M N O P Q R S T U V W X Y Z

Washya - Curse Of The Soul tab

-----------------------------------------------------------------------------
            Curse Of The Soul - Washya
-----------------------------------------------------------------------------
Tuning: Drop C (DAFCGC)
Intro
D|----------------------------------------------------------------|
A|----------------------------------------------------------------|
F|-3-----7--------------------------------------------------------|
C|-3-3-1-7--------------------------------------------------------|
G|-1-3-1-5----------------------------------3p2p0-----------------|
C|---3-1---3p000000000003p03p000000000003p0-------3p0-3p000000000-|
PM           ***********  *  ***********                ********* 

D|-----------------------------------------------------------|
A|-----------------------------------------------------------|
F|-----------------------------------------------------------|
C|-----------------------------------------------------------|
G|-------------------7p4h5p4-------------------------------5-|
C|-3p0-00000000003p0---------7~-7777777777h8p777777777h8p7p5-|
PM     **********               **********   ********* 

Verses
D|------------------------------------------------------------------------|
A|------------------------------------------------------------------------|
F|------------------------------------------------------------------------|
C|-------------------------------------------------------------5----------|
G|-----5-------6-------5-------4h5-----------6-------5---0-5-6---6-5-3----|
C|-0-0---0-0-0---0-0-6---0-0-0-----7-0-0-0-0---0-0-0---6---------------5~-|
PM * *   * * *   * *     * * *       * * * *   * * *     *    

Chorus
D|----------------------------------------------------------------|
A|----------------------------------------------------------------|
F|--------555555--------666-555-44--------------------------------|
C|-333333-555555-777777-666-555-44-2------------------------------|
G|-111111-333333-555555-444-333-22-2-------2h4h5-5555-5-6-5-3-1-0-|
C|-111111--------555555------------2-22222-2h4h5-5555-5-6-5-3-1-0-|
PM                                   *****            * * * * * 

Verses
D|------------------------------------------------------------------------|
A|------------------------------------------------------------------------|
F|------------------------------------------------------------------------|
C|-------------------------------------------------------------5----------|
G|-----5-------6-------5-------4h5-----------6-------5---0-5-6---6-5-3----|
C|-0-0---0-0-0---0-0-6---0-0-0-----7-0-0-0-0---0-0-0---6---------------5~-|
PM * *   * * *   * *     * * *       * * * *   * * *     *    
Tap to rate this tab
# A B C D E F G H I J K L M N O P Q R S T U V W X Y Z