Song name
# A B C D E F G H I J K L M N O P Q R S T U V W X Y Z

Washya - Winterbury tab

-----------------------------------------------------------------------------
             Winterbury - Washya
-----------------------------------------------------------------------------
Tuning: Drop C (DAFCGC)
Intro
D|-------------------------------------------------------------------------|
A|-------------------------------------------------------------------------|
F|-----9--------9--------9--------7-------7-------7--------5-------5-------|
C|-------9--------9--------9--------7-------7-------7--------5-------5-----|
G|---7--------7--------7--------5-------5-------5--------3-------3-----1/3-|
C|-7--------7--------7-------/5-------5-------5-------/3-------3-------1/3-|
PM * *      * *      * *      * *     * *     * *      * *     * *  

D|--------3~-|
A|--------3~-|
F|--------4~-|
C|--------5~-|
G|--------3~-|
C|-333333-3~-|x3
PM ****** 

Main Riff/Verses
D|-----------------------------------------------------------------|
A|-----------------------------------------------------------------|
F|-----------------------------------------------------------------|
C|-----------------------------------------------------------------|
G|-0-3-0-3-0-6\5-0-3-0-3-0---5-------------0-3-0-3-0-6\5-0-3-0-3-0-|
C|-0-3-0-3-0-6\5-0-3-0-3-0-6---6-5-3-0-3-5-0-3-0-3-0-6\5-0-3-0-3-0-|

D|----------------------------------------|
A|----------------------------------------|
F|----------------------------------------|
C|----------------------------------------|
G|----7-5-----------3---5-----------------|
C|-/7-----7-6-5-3-5---7---7-6-5-3-5-0-3-5-|

Interlude
D|--------3--------6--------8--6-5-3-------------|
A|--------3--------6--------8--6-5-3-------3-----|
F|--------4--------7--------9--7-6-4---------4---|
C|--------5--------8--------10-8-7-5---5-------5-|
G|--------3--------6--------8--6-5-3-3---3-------|
C|-333333-3-666666-6-888888-8--6-5-3-------------|
PM ******   ******   ****** 
Tap to rate this tab
# A B C D E F G H I J K L M N O P Q R S T U V W X Y Z