Song name
# A B C D E F G H I J K L M N O P Q R S T U V W X Y Z

Washya - Equivocations tab

-----------------------------------------------------------------------------
             Equivocations - Washya
-----------------------------------------------------------------------------
Tuning: Drop D (DADGBE)
Intro
E|----------------------------------------------|
B|----------------------------------------------|
G|------------------------------------------3-2-|
D|------------------------------------------3-2-|
A|------0-3-5-3-0-3-0-3/8\7-0-1-3-1-0-1-0-1-1-0-|
D|-//xx-0-3-5-3-0-3-0-3/8\7-0-1-3-1-0-1-0-1-----|
PM      * * * * * * * *     * * * * * * * *  

Verses
E|---------------------------------------------------------------------|
B|---------------------------------------------------------------------|
G|---------------------------------------------------------------------|
D|-------------------------------------------------------------4\3-2---|
A|-//12\\-2222222222-2h3p2/5555555555-4h5p4/7777777777-7h8p7-2-2\1-0-3-|
D|-//12\\-2222222222-2h3p2/5555555555-4h5p4/7777777777-7h8p7\2-------3-|
PM        **********       **********       ********** 

E|---------|
B|---------|
G|---------|
D|-4\3-2---|
A|-2\1-0-1-|
D|-------1-|

Chorus
E|-----------------------------------------------------------------------|
B|-----------------------------------------------------------------------|
G|-9-9-9-999-99-9-9--9-9-9-999-99-9-9-5-5-5-555-55-5-5--5-5-5-555-55-5-5-|
D|-9-9-9-999-99-9-9--9-9-9-999-99-9-9-5-5-5-555-55-5-5--5-5-5-555-55-5-5-|
A|-7-7-7-777-77-7-7--7-7-7-777-77-7-7-3-3-3-333-33-3-3--3-3-3-333-33-3-3-|
D|-7-7-7-777-77-7-7--7-7-7-777-77-7-7-3-3-3-333-33-3-3--3-3-3-333-33-3-3-|

E|------------------------------------------------------|
B|------------------------------------------------------|
G|-2-2-2-222-22-2-2--2-2-2-222-22-2-2-------------------|
D|-2-2-2-222-22-2-2--2-2-2-222-22-2-2-------------------|
A|-0-0-0-000-00-0-0--0-0-0-000-00-0-0-5555555-6-5-3-2-0-|
D|------------------------------------5555555-6-5-3-2-0-|
PM                                    ******* 
Tap to rate this tab
# A B C D E F G H I J K L M N O P Q R S T U V W X Y Z