Song name
# A B C D E F G H I J K L M N O P Q R S T U V W X Y Z

Washya - Thrown Too The Wolves tab

-----------------------------------------------------------------------------
          Thrown Too The Wolves - Washya
-----------------------------------------------------------------------------
Tuning: Drop D (DADGBE)
Intro
E|----------------------------------------|
B|----------------------------------------|
G|----------------------------------------|
D|----------------------------------------|
A|-2-/8-7-0--2-/7-8-5--2-/8-7-0--2-/7-8-5-|
D|-2-/8-7-0--2-/7-8-5--2-/8-7-0--2-/7-8-5-|x3

Main Riff/Chorus
E|---------------------------------------------------------------------|
B|---------------------------------------------------------------------|
G|---------------------------------------------------------------------|
D|---------------------------------------------------------------------|
A|-222222222222/77777777777/88888888888\7777777\5555555555-5-77-5-77-5-|
D|-222222222222/77777777777/88888888888\7777777\5555555555-5-77-5-77-5-|

Verses
E|-----------------------------------------------------------------------|
B|-----------------------------------------------------------------------|
G|-----------------------------------------------------------------------|
D|-----------------------------------------------------------------------|
A|-----3p2p0-----------3p2p0-------222-----8p7p5-------555-10p9p7--------|
D|-0-0-------5p3p2-0-0-------5p3p2-222-0-0-------8p7p5-555--------10p9p7-|
PM * * * * * * * * * * * * * * * *     * * * * * * * *     *************

E|-------------------------------------|
B|-------------------------------------|
G|-------------------------------------|
D|-------------------------------------|
A|-777-----11p10p8---------8888-10-8-5-|
D|-777-0-0---------11p10p8-8888-10-8-5-|
PM     * * ***************      
Tap to rate this tab
# A B C D E F G H I J K L M N O P Q R S T U V W X Y Z